Soul Man / The Blues Brothers ~ lyrics and guitar chords
Soul Man
The Blues Brothers 

E D2 G A2 B2
  E add6 A add6 (x4)
                        E add6 A add6  E add6       A add6
            Comin' to ya   -   on  a  dusty road
            Good lovin' - I got a truck load
            And when you get it, you got something
            So don't worry, cause I'm coming

                                     E             D2
                            I'm a soul man
                                     E
                            I'm a soul man
                            I'm a soul man
                            I'm a soul man
                                                     A2 C#2 E2 B

            Got what I got the hard way
            And I'll make it better each and every day
            So honey don't you fret
            Cause you ain't seen nothing yet

                            I'm a soul man
                            I'm a soul man
                            I'm a soul man
                            I'm a soul man
                                                     A2 C#2 E2 B

            I was brought up on a side street
            I learned how to love before I could eat
            I was educated at goodstock
            When I start lovin' I just can't stop

                            I'm a soul man
                            I'm a soul man
                            I'm a soul man
                            I'm a soul man
                                                     A2 C#2 E2 B

                                                   C2                               G
                                          Well, grab the rope and I'll pull you in
                                          A2                           B2
                                          Give you hope and be your only boyfriend
                                          C2
                                          Yeah, yeah, yeah, yeah
                                                      *Interlude*     F2 D#2 G# A# C (x2)
                                                                                 A#2 D2 F2 C

                                     F add6     A#2 add6
                            I'm a soul man
                            I'm a soul man
                            I'm a soul man
                            I'm a soul man
                            I'm a soul man
                                     F add6     A#2 add6   F  F7
                            I'm a soul man...
      


  Copyright 1978
  By Isaac Hayes and Dave Porter (1967)
  Briefcase Full of Blues





   Chords:
          E  D2 G  A2 B2 E6 A6 C#2 E2 B
      e |-0--0--3--0--2--0--0---4--7--7--
      B |-0--3--0--0--2--0--2---4--7--7--
      G |-1--2--0--2--4--1--2---6--9--8--
      D |-2--0--0--2--4--2--4---6--9--9--
      A |-2--0--2--0--2--4--0---4--7--9--
      E |-0-----3--------0------------7--

          C2 F2 D#2 G# A# C  F  F6 A# A#6 F7
      e |-3--8---6--4--6--8--1--1--1---1--1--
      B |-3--8---6--4--6--8--1--1--3---3--1--
      G |-5--10--8--5--7--9--2--2--3---3--2--
      D |-5--10--8--6--8--10-3--3--3---5--1--
      A |-3--8---6--6--8--10-3--5--1---1--3--
      E |-----------4--6--8--1--1---------1--

          E add6 A add6    F add6 A#2 add6
      e |--------------------------------
      B |--------------------------------
      G |------------2----------------3--
      D |----------4----------------5----
      A |---4-2--0-----------5-3--1------
      E |-0----------------1-------------







Briefcase Full of Blues







Home | Songs | Art Projects | Jamroom


What a long strange trip it's been!