Voodoo Chile (Slight Return) / Jimi Hendrix ~ lyrics and guitar chords
Voodoo Chile (Slight Return)
Jimi Hendrix 

(Tune down 1/2 step)
    E2 Thing (wah notes) (x4)
        E2 Thing(1) E2 Thing(2) (x4)
                         E2 Stuff
              Well, I stand up next to a mountain
              And I chop it down with the edge of my hand
                                                                                          E2 Thing (x4)

              Well, I stand up next to a mountain
              And I chop it down with the edge of my hand
                                                                                          E2 Thing (x2)
                          sus7
              Well, I pick up all the pieces and make an island
        susM6               sus6
              Might even raise a little sand
                                                                        E2 Thing (x2)

                                                              C7
                                Yeah, cause I'm a voodoo child
                            D7
                                Lord knows I'm a voodoo child, baby - yeah!
                                                *Solo*   E2 Thing (x16)

                                             ...I want to say one more last thing
                                                                                                        E2 Thing (x4)

              I didn't mean to take up all your sweet time
              I'll give it right back to ya one of these days (hahaha)

              I said, I didn't mean to take up all your sweet time
              I'll give it right back one of these days - oh, yeah

              If I don't meet you no more in this world then, uh
              I'll meet ya on the next one and don't be late, don't be late!

                                Cause I'm a voodoo child, voodoo child
                                Lord knows I'm a voodoo child - hey, hey, hey

          (outro rap)
              I'm a voodoo child, baby
              I don't take no for an answer
              Question?  No?
              Yeah...
                                          *Outro*   E2 Thing (repeat n fade)
      


  Copyright 1968
  By Jimi Hendrix
  Electric Ladyland





                          (Tune down 1/2 step)
   Chords:
           E2  E7 E(M6) E6  C7 D2
      eb |-7----------------3--5--
      Bb |-7----------------5--7---
      Gb |-9----7---6---6---3--5-----
      Db |-9---9---8---7----5--7-------
      Ab |-7----------------3--5---------
      Eb |----------------------------------

   Intro:
          (w/ wah-wah pedal)         (x4)
      eb |-------------------------------| |----------------------
      Bb |-------------------------------| |-10``b/```-10b/\r8----
      Gb |-9-7---7--------------9-7---9--| |-------------------9--
      Db |-----9---------7----------9----| |----------------------
      Ab |---------10-10--h10p7----------| |----------------------
      Eb |-------------------------------| |----------------------

   Main riffs:
          E2 Thing(1)            E2 Thing(2)
      eb |-----------7------7-- |-------------------------
      Bb |-----------7---7--7-- |-------------------------
      Gb |-----------9--r7--9-- |-------------------------
      Db |-----------9--r7--9-- |-----2-b/\r0-------------
      Ab |-------s/7-7---7--7-- |-------------2--2-2-0-2--
      Eb |-0-0-3~-------------- |-0-0---------------------

    h = hammer-on
    p = pull-off
    ` = note repeats quick
    b/``` = bend up 1/2 step (over the course of the triplet)
    b/\r = bend up 1 whole step, back down and release note
    ~ = vibrato
    s/ = slide up to







Electric Ladyland







Home | Songs | Art Projects | Jamroom | Cupboard


What a long strange trip it's been!