Scar Tissue / Red Hot Chili Peppers ~ lyrics and guitar chords
Scar Tissue
Red Hot Chili Peppers 

F2  C2  Dm C2 (x2)
           F2                                                C2
           Scar tissue that I wish you saw
                 Dm                                   C2
           Sarcastic mister know it all
           Close your eyes and I'll kiss you
           Cause with the birds I'll share

                       F2                                            C2       Dm    C2
                         With the birds I'll share this lonely view, and
                         With the birds I'll share this lonely view, and

           Push me up against the wall
           Young Kentucky girl in a push-up bra
           Fallin' all, over myself
           To lick your heart and taste your health, cause

                         With the birds I'll share this lonely view, and
                         With the birds I'll share this lonely view, and
                         With the birds I'll share this lonely view
                                           *Interlude*    D2  C2  D2   D2 Em

           Blood loss in a bathroom stall
           Southern girl with a scarlet drawl
           I wave good-bye to ma and pa
           Cause with the birds I'll share

                         With the birds I'll share this lonely view, and
                         With the birds I'll share this lonely view

           Soft spoken with a broken jaw
           Step outside, but not to brawl
           And autumn's sweet we call it fall
           I'll make it to the moon if I have to crawl, and

                         With the birds I'll share this lonely view, and
                         With the birds I'll share this lonely view, and
                         With the birds I'll share this lonely view
                                           *Interlude*    D2  C2  D2 (x2)  D2 Em

           Scar tissue that I wish you saw
           Sarcasm mister know it all
           Close your eyes and I'll kiss you
           Cause with the birds I'll share

                         With the birds I'll share this lonely view, and
                         With the birds I'll share this lonely view, and
                         With the birds I'll share this lonely view...
                                           *Interlude*    D2  C2  D2 (x4)
      


  Copyright 1999 Moeblametome Music
  By The Red Hot Chili Peppers
  Californication





   Chords:
          F2   C2  Dm  D2  Em
      e |-8----3---5---5---7--
      B |-8----3---6---5---8--
      G |-10---5---7---7---9--
      D |-10---5---7---7---9--
      A |-8----3---5---5---7--
      E |---------------------

   Intro:
         F2               C2    Dm               C2
      e |--------------------------------------------
      B |----10---10-10-10---------------------------
      G |------------------9-9-s-10--10-10---10-s-9--
      D |--------------------------------------------
      A |-8-----8---8--8-----------------------------
      E |------------------8-8-s-10----10-10---------

      e |--------------------------------------------
      B |----10---10-10-10-8-------------------------
      G |----------------------9-s-10---12p10-12p10--
      D |--------------------------------------------
      A |-8-----8---8--8-----------------------------
      E |----------------------8-s-10----------------

    s = slide
    p = pull-off







Californication







Home | Songs | Art Projects | Jamroom


What a long strange trip it's been!